  0
SECTION
  2
HEADER
  9
$ACADVER
  1
AC1015
  9
$ACADMAINTVER
 70
     6
  9
$DWGCODEPAGE
  3
ANSI_1254
  9
$INSBASE
 10
0.0
 20
0.0
 30
0.0
  9
$EXTMIN
 10
0.0
 20
0.0
 30
0.0
  9
$EXTMAX
 10
279.4
 20
215.9
 30
0.0
  9
$LIMMIN
 10
0.0
 20
0.0
  9
$LIMMAX
 10
279.4
 20
215.9
  9
$ORTHOMODE
 70
     0
  9
$REGENMODE
 70
     1
  9
$FILLMODE
 70
     1
  9
$QTEXTMODE
 70
     0
  9
$MIRRTEXT
 70
     1
  9
$LTSCALE
 40
1.0
  9
$ATTMODE
 70
     1
  9
$TEXTSIZE
 40
3.5
  9
$TRACEWID
 40
1.0
  9
$TEXTSTYLE
  7
Standard
  9
$CLAYER
  8
0
  9
$CELTYPE
  6
ByLayer
  9
$CECOLOR
 62
   256
  9
$CELTSCALE
 40
1.0
  9
$DISPSILH
 70
     0
  9
$DIMSCALE
 40
1.0
  9
$DIMASZ
 40
3.5
  9
$DIMEXO
 40
1.0
  9
$DIMDLI
 40
3.75
  9
$DIMRND
 40
0.0
  9
$DIMDLE
 40
0.0
  9
$DIMEXE
 40
1.0
  9
$DIMTP
 40
0.0
  9
$DIMTM
 40
0.0
  9
$DIMTXT
 40
3.5
  9
$DIMCEN
 40
2.5
  9
$DIMTSZ
 40
0.0
  9
$DIMTOL
 70
     0
  9
$DIMLIM
 70
     0
  9
$DIMTIH
 70
     1
  9
$DIMTOH
 70
     1
  9
$DIMSE1
 70
     0
  9
$DIMSE2
 70
     0
  9
$DIMTAD
 70
     1
  9
$DIMZIN
 70
     0
  9
$DIMBLK
  1

  9
$DIMASO
 70
     1
  9
$DIMSHO
 70
     1
  9
$DIMPOST
  1

  9
$DIMAPOST
  1

  9
$DIMALT
 70
     0
  9
$DIMALTD
 70
     3
  9
$DIMALTF
 40
0.0393700787
  9
$DIMLFAC
 40
1.0
  9
$DIMTOFL
 70
     1
  9
$DIMTVP
 40
0.0
  9
$DIMTIX
 70
     0
  9
$DIMSOXD
 70
     0
  9
$DIMSAH
 70
     0
  9
$DIMBLK1
  1

  9
$DIMBLK2
  1

  9
$DIMSTYLE
  2
ISO-25
  9
$DIMCLRD
 70
     0
  9
$DIMCLRE
 70
     0
  9
$DIMCLRT
 70
     0
  9
$DIMTFAC
 40
1.0
  9
$DIMGAP
 40
1.524
  9
$DIMJUST
 70
     0
  9
$DIMSD1
 70
     0
  9
$DIMSD2
 70
     0
  9
$DIMTOLJ
 70
     0
  9
$DIMTZIN
 70
     0
  9
$DIMALTZ
 70
     0
  9
$DIMALTTZ
 70
     0
  9
$DIMUPT
 70
     0
  9
$DIMDEC
 70
     2
  9
$DIMTDEC
 70
     2
  9
$DIMALTU
 70
     2
  9
$DIMALTTD
 70
     3
  9
$DIMTXSTY
  7
Standard
  9
$DIMAUNIT
 70
     0
  9
$DIMADEC
 70
     2
  9
$DIMALTRND
 40
0.0
  9
$DIMAZIN
 70
     0
  9
$DIMDSEP
 70
    44
  9
$DIMATFIT
 70
     3
  9
$DIMFRAC
 70
     0
  9
$DIMLDRBLK
  1

  9
$DIMLUNIT
 70
     2
  9
$DIMLWD
 70
    -2
  9
$DIMLWE
 70
    -2
  9
$DIMTMOVE
 70
     0
  9
$LUNITS
 70
     2
  9
$LUPREC
 70
     2
  9
$SKETCHINC
 40
1.0
  9
$FILLETRAD
 40
10.0
  9
$AUNITS
 70
     0
  9
$AUPREC
 70
     2
  9
$MENU
  1
.
  9
$ELEVATION
 40
0.0
  9
$PELEVATION
 40
0.0
  9
$THICKNESS
 40
0.0
  9
$LIMCHECK
 70
     0
  9
$CHAMFERA
 40
0.0
  9
$CHAMFERB
 40
0.0
  9
$CHAMFERC
 40
0.0
  9
$CHAMFERD
 40
0.0
  9
$SKPOLY
 70
     0
  9
$TDCREATE
 40
2458985.698641991
  9
$TDUCREATE
 40
2458985.573641991
  9
$TDUPDATE
 40
2458985.698642419
  9
$TDUUPDATE
 40
2458985.573642419
  9
$TDINDWG
 40
0.0000000116
  9
$TDUSRTIMER
 40
0.0000000116
  9
$USRTIMER
 70
     1
  9
$ANGBASE
 50
0.0
  9
$ANGDIR
 70
     0
  9
$PDMODE
 70
     0
  9
$PDSIZE
 40
-1.0
  9
$PLINEWID
 40
0.0
  9
$SPLFRAME
 70
     0
  9
$SPLINETYPE
 70
     6
  9
$SPLINESEGS
 70
     8
  9
$HANDSEED
  5
EB
  9
$SURFTAB1
 70
     6
  9
$SURFTAB2
 70
     6
  9
$SURFTYPE
 70
     6
  9
$SURFU
 70
     6
  9
$SURFV
 70
     6
  9
$UCSBASE
  2

  9
$UCSNAME
  2

  9
$UCSORG
 10
0.0
 20
0.0
 30
0.0
  9
$UCSXDIR
 10
1.0
 20
0.0
 30
0.0
  9
$UCSYDIR
 10
0.0
 20
1.0
 30
0.0
  9
$UCSORTHOREF
  2

  9
$UCSORTHOVIEW
 70
     0
  9
$UCSORGTOP
 10
0.0
 20
0.0
 30
0.0
  9
$UCSORGBOTTOM
 10
0.0
 20
0.0
 30
0.0
  9
$UCSORGLEFT
 10
0.0
 20
0.0
 30
0.0
  9
$UCSORGRIGHT
 10
0.0
 20
0.0
 30
0.0
  9
$UCSORGFRONT
 10
0.0
 20
0.0
 30
0.0
  9
$UCSORGBACK
 10
0.0
 20
0.0
 30
0.0
  9
$PUCSBASE
  2

  9
$PUCSNAME
  2

  9
$PUCSORG
 10
0.0
 20
0.0
 30
0.0
  9
$PUCSXDIR
 10
1.0
 20
0.0
 30
0.0
  9
$PUCSYDIR
 10
0.0
 20
1.0
 30
0.0
  9
$PUCSORTHOREF
  2

  9
$PUCSORTHOVIEW
 70
     0
  9
$PUCSORGTOP
 10
0.0
 20
0.0
 30
0.0
  9
$PUCSORGBOTTOM
 10
0.0
 20
0.0
 30
0.0
  9
$PUCSORGLEFT
 10
0.0
 20
0.0
 30
0.0
  9
$PUCSORGRIGHT
 10
0.0
 20
0.0
 30
0.0
  9
$PUCSORGFRONT
 10
0.0
 20
0.0
 30
0.0
  9
$PUCSORGBACK
 10
0.0
 20
0.0
 30
0.0
  9
$USERI1
 70
     0
  9
$USERI2
 70
     0
  9
$USERI3
 70
     0
  9
$USERI4
 70
     0
  9
$USERI5
 70
     0
  9
$USERR1
 40
0.0
  9
$USERR2
 40
0.0
  9
$USERR3
 40
0.0
  9
$USERR4
 40
0.0
  9
$USERR5
 40
0.0
  9
$WORLDVIEW
 70
     1
  9
$SHADEDGE
 70
     3
  9
$SHADEDIF
 70
    70
  9
$TILEMODE
 70
     1
  9
$MAXACTVP
 70
    64
  9
$PINSBASE
 10
0.0
 20
0.0
 30
0.0
  9
$PLIMCHECK
 70
     0
  9
$PEXTMIN
 10
1.0000000000E+20
 20
1.0000000000E+20
 30
1.0000000000E+20
  9
$PEXTMAX
 10
-1.0000000000E+20
 20
-1.0000000000E+20
 30
-1.0000000000E+20
  9
$PLIMMIN
 10
0.0
 20
0.0
  9
$PLIMMAX
 10
420.0
 20
297.0
  9
$UNITMODE
 70
     0
  9
$VISRETAIN
 70
     1
  9
$PLINEGEN
 70
     0
  9
$PSLTSCALE
 70
     1
  9
$TREEDEPTH
 70
  3020
  9
$CMLSTYLE
  2
Standard
  9
$CMLJUST
 70
     0
  9
$CMLSCALE
 40
20.0
  9
$PROXYGRAPHICS
 70
     1
  9
$MEASUREMENT
 70
     1
  9
$CELWEIGHT
370
    -1
  9
$ENDCAPS
280
     0
  9
$JOINSTYLE
280
     0
  9
$LWDISPLAY
290
     1
  9
$INSUNITS
 70
     4
  9
$HYPERLINKBASE
  1

  9
$STYLESHEET
  1

  9
$XEDIT
290
     1
  9
$CEPSNTYPE
380
     0
  9
$PSTYLEMODE
290
     1
  9
$FINGERPRINTGUID
  2
{ba0b0179-9878-421b-84b9-7c64b342c563}
  9
$VERSIONGUID
  2
{FAEB1C32-E019-11D5-929B-00C0DF256EC4}
  9
$EXTNAMES
290
     1
  9
$PSVPSCALE
 40
0.0
  9
$OLESTARTUP
290
     0
  0
ENDSEC
  0
SECTION
  2
CLASSES
  0
CLASS
  1
ACDBDICTIONARYWDFLT
  2
AcDbDictionaryWithDefault
  3
ObjectDBX Classes
 90
        0
280
     0
281
     0
  0
CLASS
  1
VISUALSTYLE
  2
AcDbVisualStyle
  3
ObjectDBX Classes
 90
     4095
280
     0
281
     0
  0
CLASS
  1
MATERIAL
  2
AcDbMaterial
  3
ObjectDBX Classes
 90
     1153
280
     0
281
     0
  0
CLASS
  1
SCALE
  2
AcDbScale
  3
ObjectDBX Classes
 90
     1153
280
     0
281
     0
  0
CLASS
  1
TABLESTYLE
  2
AcDbTableStyle
  3
ObjectDBX Classes
 90
     4095
280
     0
281
     0
  0
CLASS
  1
MLEADERSTYLE
  2
AcDbMLeaderStyle
  3
ACDB_MLEADERSTYLE_CLASS
 90
     4095
280
     0
281
     0
  0
CLASS
  1
SUN
  2
AcDbSun
  3
SCENEOE
 90
     1153
280
     0
281
     0
  0
CLASS
  1
ACDBPLACEHOLDER
  2
AcDbPlaceHolder
  3
ObjectDBX Classes
 90
        0
280
     0
281
     0
  0
CLASS
  1
LAYOUT
  2
AcDbLayout
  3
ObjectDBX Classes
 90
        0
280
     0
281
     0
  0
ENDSEC
  0
SECTION
  2
TABLES
  0
TABLE
  2
VPORT
  5
8
330
0
100
AcDbSymbolTable
 70
     1
  0
VPORT
  5
29
330
8
100
AcDbSymbolTableRecord
100
AcDbViewportTableRecord
  2
*Active
 70
     0
 10
0.0
 20
0.0
 11
1.0
 21
1.0
 12
139.7
 22
107.95
 13
0.0
 23
0.0
 14
10.0
 24
10.0
 15
10.0
 25
10.0
 16
0.0
 26
0.0
 36
1.0
 17
0.0
 27
0.0
 37
0.0
 40
215.9
 41
1.2941176471
 42
50.0
 43
0.0
 44
0.0
 50
0.0
 51
0.0
 71
     0
 72
  2000
 73
     1
 74
     3
 75
     0
 76
     0
 77
     0
 78
     0
281
     0
 65
     1
110
0.0
120
0.0
130
0.0
111
1.0
121
0.0
131
0.0
112
0.0
122
1.0
132
0.0
 79
     0
146
0.0
  0
ENDTAB
  0
TABLE
  2
LTYPE
  5
5
330
0
100
AcDbSymbolTable
 70
     6
  0
LTYPE
  5
14
330
5
100
AcDbSymbolTableRecord
100
AcDbLinetypeTableRecord
  2
ByBlock
 70
     0
  3

 72
    65
 73
     0
 40
0.0
  0
LTYPE
  5
15
330
5
100
AcDbSymbolTableRecord
100
AcDbLinetypeTableRecord
  2
ByLayer
 70
     0
  3

 72
    65
 73
     0
 40
0.0
  0
LTYPE
  5
16
330
5
100
AcDbSymbolTableRecord
100
AcDbLinetypeTableRecord
  2
Continuous
 70
     0
  3
Solid line
 72
    65
 73
     0
 40
0.0
  0
LTYPE
  5
6E
330
5
100
AcDbSymbolTableRecord
100
AcDbLinetypeTableRecord
  2
HIDDEN
 70
     0
  3
Hidden __ __ __ __ __ __ __ __ __ __ __ __ __ __
 72
    65
 73
     2
 40
1.905
 49
1.27
 74
     0
 49
-0.635
 74
     0
  0
LTYPE
  5
6F
330
5
100
AcDbSymbolTableRecord
100
AcDbLinetypeTableRecord
  2
PHANTOM
 70
     0
  3
Phantom ______  __  __  ______  __  __  ______
 72
    65
 73
     6
 40
12.7
 49
6.35
 74
     0
 49
-1.27
 74
     0
 49
1.27
 74
     0
 49
-1.27
 74
     0
 49
1.27
 74
     0
 49
-1.27
 74
     0
  0
LTYPE
  5
70
330
5
100
AcDbSymbolTableRecord
100
AcDbLinetypeTableRecord
  2
CENTER
 70
     0
  3
Center ____ _ ____ _ ____ _ ____ _ ____ _ ____
 72
    65
 73
     4
 40
10.16
 49
6.35
 74
     0
 49
-1.27
 74
     0
 49
1.27
 74
     0
 49
-1.27
 74
     0
  0
LTYPE
  5
71
330
5
100
AcDbSymbolTableRecord
100
AcDbLinetypeTableRecord
  2
CENTERX2
 70
     0
  3
Center (2x) ________  __  ________  __  _____
 72
    65
 73
     4
 40
20.32
 49
12.7
 74
     0
 49
-2.54
 74
     0
 49
2.54
 74
     0
 49
-2.54
 74
     0
  0
LTYPE
  5
72
330
5
100
AcDbSymbolTableRecord
100
AcDbLinetypeTableRecord
  2
DOT2
 70
     0
  3
Dot (.5x) ........................................
 72
    65
 73
     2
 40
0.635
 49
0.0
 74
     0
 49
-0.635
 74
     0
  0
ENDTAB
  0
TABLE
  2
LAYER
  5
2
330
0
100
AcDbSymbolTable
 70
    17
  0
LAYER
  5
10
330
2
100
AcDbSymbolTableRecord
100
AcDbLayerTableRecord
  2
0
 70
     0
 62
     7
  6
Continuous
370
    -3
390
F
  0
LAYER
  5
73
330
2
100
AcDbSymbolTableRecord
100
AcDbLayerTableRecord
  2
FORMAT
 70
     0
 62
     7
  6
Continuous
370
    -3
390
F
  0
LAYER
  5
74
330
2
100
AcDbSymbolTableRecord
100
AcDbLayerTableRecord
  2
YARDIMCI_GEOMETRI
 70
     0
 62
    -6
  6
Continuous
290
     0
370
    -3
390
F
  0
LAYER
  5
75
330
2
100
AcDbSymbolTableRecord
100
AcDbLayerTableRecord
  2
SAYFA_CERCEVESI
 70
     0
 62
     7
  6
Continuous
370
    25
390
F
  0
LAYER
  5
76
330
2
100
AcDbSymbolTableRecord
100
AcDbLayerTableRecord
  2
ANTET
 70
     0
 62
     7
  6
Continuous
370
    -3
390
F
  0
LAYER
  5
77
330
2
100
AcDbSymbolTableRecord
100
AcDbLayerTableRecord
  2
OLCU
 70
     0
 62
   150
  6
Continuous
370
    -3
390
F
  0
LAYER
  5
78
330
2
100
AcDbSymbolTableRecord
100
AcDbLayerTableRecord
  2
METIN
 70
     0
 62
    96
  6
Continuous
370
    -3
390
F
  0
LAYER
  5
79
330
2
100
AcDbSymbolTableRecord
100
AcDbLayerTableRecord
  2
BALON
 70
     0
 62
     5
  6
Continuous
370
    -3
390
F
  0
LAYER
  5
7A
330
2
100
AcDbSymbolTableRecord
100
AcDbLayerTableRecord
  2
VURGU
 70
     0
 62
     7
  6
Continuous
370
    -3
390
F
  0
LAYER
  5
7B
330
2
100
AcDbSymbolTableRecord
100
AcDbLayerTableRecord
  2
SILIK
 70
     0
 62
     7
  6
Continuous
370
    -3
390
F
  0
LAYER
  5
7C
330
2
100
AcDbSymbolTableRecord
100
AcDbLayerTableRecord
  2
MODEL
 70
     0
 62
     7
  6
Continuous
370
    -3
390
F
  0
LAYER
  5
7D
330
2
100
AcDbSymbolTableRecord
100
AcDbLayerTableRecord
  2
DETAYLANDıRMA
 70
     0
 62
   190
  6
Continuous
370
    -3
390
F
  0
LAYER
  5
7E
330
2
100
AcDbSymbolTableRecord
100
AcDbLayerTableRecord
  2
TOLERANS
 70
     0
 62
   230
  6
Continuous
370
    -3
390
F
  0
LAYER
  5
7F
330
2
100
AcDbSymbolTableRecord
100
AcDbLayerTableRecord
  2
MERKEZ_CIZGILERI
 70
     0
 62
    30
  6
Continuous
370
    -3
390
F
  0
LAYER
  5
80
330
2
100
AcDbSymbolTableRecord
100
AcDbLayerTableRecord
  2
KESIT-DETAY_CIZGILERI
 70
     0
 62
     7
  6
Continuous
370
    -3
390
F
  0
LAYER
  5
81
330
2
100
AcDbSymbolTableRecord
100
AcDbLayerTableRecord
  2
\U+041E\U+0421\U+0415\U+0412\U+042B\U+0415
 70
     0
 62
     7
  6
Continuous
370
    -3
390
F
  0
LAYER
  5
82
330
2
100
AcDbSymbolTableRecord
100
AcDbLayerTableRecord
  2
\U+0412\U+041E\U+0414\U+042F\U+041D\U+042B\U+0415_\U+0417\U+041D\U+0410\U+041A\U+0418
 70
     0
 62
    11
  6
Continuous
370
    -3
390
F
  0
ENDTAB
  0
TABLE
  2
STYLE
  5
3
330
0
100
AcDbSymbolTable
 70
     1
  0
STYLE
  5
11
330
3
100
AcDbSymbolTableRecord
100
AcDbTextStyleTableRecord
  2
Standard
 70
     0
 40
0.0
 41
1.0
 50
0.0
 71
     0
 42
3.5
  3
txt
  4

  0
ENDTAB
  0
TABLE
  2
VIEW
  5
6
330
0
100
AcDbSymbolTable
 70
     0
  0
ENDTAB
  0
TABLE
  2
UCS
  5
7
330
0
100
AcDbSymbolTable
 70
     0
  0
ENDTAB
  0
TABLE
  2
APPID
  5
9
330
0
100
AcDbSymbolTable
 70
     1
  0
APPID
  5
12
330
9
100
AcDbSymbolTableRecord
100
AcDbRegAppTableRecord
  2
ACAD
 70
     0
  0
ENDTAB
  0
TABLE
  2
DIMSTYLE
  5
A
330
0
100
AcDbSymbolTable
 70
     1
100
AcDbDimStyleTable
  0
DIMSTYLE
105
27
330
A
100
AcDbSymbolTableRecord
100
AcDbDimStyleTableRecord
  2
ISO-25
 70
     0
 41
2.5
 42
0.625
 43
3.75
 44
1.25
 73
     0
 74
     0
 77
     1
 78
     8
140
2.5
141
2.5
143
0.0393700787
147
0.625
171
     3
172
     1
178
     0
271
     2
272
     2
274
     3
278
    44
283
     0
284
     8
340
11
  0
ENDTAB
  0
TABLE
  2
BLOCK_RECORD
  5
1
330
0
100
AcDbSymbolTable
 70
     2
  0
BLOCK_RECORD
  5
1F
330
1
100
AcDbSymbolTableRecord
100
AcDbBlockTableRecord
  2
*Model_Space
340
22
  0
BLOCK_RECORD
  5
1B
330
1
100
AcDbSymbolTableRecord
100
AcDbBlockTableRecord
  2
*Paper_Space
340
1E
  0
BLOCK_RECORD
  5
23
330
1
100
AcDbSymbolTableRecord
100
AcDbBlockTableRecord
  2
*Paper_Space0
340
26
  0
BLOCK_RECORD
  5
88
330
1
100
AcDbSymbolTableRecord
100
AcDbBlockTableRecord
  2
SW_CENTERMARKSYMBOL_0
340
0
102
{BLKREFS
331
93
102
}
  0
ENDTAB
  0
ENDSEC
  0
SECTION
  2
BLOCKS
  0
BLOCK
  5
20
330
1F
100
AcDbEntity
  8
0
100
AcDbBlockBegin
  2
*Model_Space
 70
     0
 10
0.0
 20
0.0
 30
0.0
  3
*Model_Space
  1

  0
ENDBLK
  5
21
330
1F
100
AcDbEntity
  8
0
100
AcDbBlockEnd
  0
BLOCK
  5
1C
330
1B
100
AcDbEntity
 67
     1
  8
0
100
AcDbBlockBegin
  2
*Paper_Space
 70
     0
 10
0.0
 20
0.0
 30
0.0
  3
*Paper_Space
  1

  0
ENDBLK
  5
1D
330
1B
100
AcDbEntity
 67
     1
  8
0
100
AcDbBlockEnd
  0
BLOCK
  5
24
330
23
100
AcDbEntity
  8
0
100
AcDbBlockBegin
  2
*Paper_Space0
 70
     0
 10
0.0
 20
0.0
 30
0.0
  3
*Paper_Space0
  1

  0
ENDBLK
  5
25
330
23
100
AcDbEntity
  8
0
100
AcDbBlockEnd
  0
BLOCK
  5
89
330
88
100
AcDbEntity
  8
0
100
AcDbBlockBegin
  2
SW_CENTERMARKSYMBOL_0
 70
     0
 10
0.0
 20
0.0
 30
0.0
  3
SW_CENTERMARKSYMBOL_0
  1

  0
LINE
  5
8B
330
88
100
AcDbEntity
  8
FORMAT
 62
     0
100
AcDbLine
 10
0.0
 20
0.0
 30
0.0
 11
0.0
 21
2.5
 31
0.0
  0
LINE
  5
8C
330
88
100
AcDbEntity
  8
FORMAT
 62
     0
100
AcDbLine
 10
0.0
 20
0.0
 30
0.0
 11
-2.5
 21
0.0
 31
0.0
  0
LINE
  5
8D
330
88
100
AcDbEntity
  8
FORMAT
 62
     0
100
AcDbLine
 10
0.0
 20
0.0
 30
0.0
 11
0.0
 21
-2.5
 31
0.0
  0
LINE
  5
8E
330
88
100
AcDbEntity
  8
FORMAT
 62
     0
100
AcDbLine
 10
0.0
 20
0.0
 30
0.0
 11
2.5
 21
0.0
 31
0.0
  0
LINE
  5
8F
330
88
100
AcDbEntity
  8
FORMAT
 62
     0
100
AcDbLine
 10
0.0
 20
5.0
 30
0.0
 11
0.0
 21
34.0
 31
0.0
  0
LINE
  5
90
330
88
100
AcDbEntity
  8
FORMAT
 62
     0
100
AcDbLine
 10
-5.0
 20
0.0
 30
0.0
 11
-34.0
 21
0.0
 31
0.0
  0
LINE
  5
91
330
88
100
AcDbEntity
  8
FORMAT
 62
     0
100
AcDbLine
 10
0.0
 20
-5.0
 30
0.0
 11
0.0
 21
-34.0
 31
0.0
  0
LINE
  5
92
330
88
100
AcDbEntity
  8
FORMAT
 62
     0
100
AcDbLine
 10
5.0
 20
0.0
 30
0.0
 11
34.0
 21
0.0
 31
0.0
  0
ENDBLK
  5
8A
330
88
100
AcDbEntity
  8
0
100
AcDbBlockEnd
  0
ENDSEC
  0
SECTION
  2
ENTITIES
  0
CIRCLE
  5
83
330
1F
100
AcDbEntity
  8
0
  6
Continuous
 62
     7
370
    25
100
AcDbCircle
 10
139.395004093
 20
107.5851680021
 30
0.0
 40
31.5
  0
CIRCLE
  5
84
330
1F
100
AcDbEntity
  8
0
  6
Continuous
 62
     7
370
    25
100
AcDbCircle
 10
139.395004093
 20
107.5851680021
 30
0.0
 40
25.7
  0
CIRCLE
  5
85
330
1F
100
AcDbEntity
  8
0
  6
Continuous
 62
     7
370
    25
100
AcDbCircle
 10
139.395004093
 20
107.5851680021
 30
0.0
 40
25.48565130012373
  0
CIRCLE
  5
86
330
1F
100
AcDbEntity
  8
0
  6
Continuous
 62
     7
370
    25
100
AcDbCircle
 10
139.395004093
 20
107.5851680021
 30
0.0
 40
16.51434869987628
  0
CIRCLE
  5
87
330
1F
100
AcDbEntity
  8
0
  6
Continuous
 62
     7
370
    25
100
AcDbCircle
 10
139.395004093
 20
107.5851680021
 30
0.0
 40
16.30000000000001
  0
INSERT
  5
93
330
1F
100
AcDbEntity
  8
FORMAT
 62
     7
100
AcDbBlockReference
  2
SW_CENTERMARKSYMBOL_0
 10
139.395004093
 20
107.5851680021
 30
0.0
  0
ARC
  5
94
330
1F
100
AcDbEntity
  8
0
  6
Continuous
 62
     7
370
    25
100
AcDbCircle
 10
-30.8412369143
 20
137.0851680021
 30
0.0
 40
2.00000000000002
100
AcDbArc
 50
73.1625273743
 51
90.0
  0
ARC
  5
95
330
1F
100
AcDbEntity
  8
0
  6
Continuous
 62
     7
370
    25
100
AcDbCircle
 10
-30.8412369143
 20
78.0851680021
 30
0.0
 40
2.000000000000007
100
AcDbArc
 50
270.0
 51
286.8374726257
  0
LINE
  5
96
330
1F
100
AcDbEntity
  8
0
  6
Continuous
 62
     7
370
    25
100
AcDbLine
 10
-30.8412371344
 20
139.0851685088
 30
0.0
 11
-93.5452377565
 21
139.0851685088
 31
0.0
  0
LINE
  5
97
330
1F
100
AcDbEntity
  8
0
  6
Continuous
 62
     7
370
    25
100
AcDbLine
 10
-93.5452377565
 20
76.0851674955
 30
0.0
 11
-30.8412371344
 21
76.0851674955
 31
0.0
  0
LINE
  5
98
330
1F
100
AcDbEntity
  8
0
  6
Continuous
 62
     7
370
    25
100
AcDbLine
 10
-30.2619209654
 20
76.170908777
 30
0.0
 11
7.1714518451
 21
87.4994290303
 31
0.0
  0
LINE
  5
99
330
1F
100
AcDbEntity
  8
0
  6
Continuous
 62
     7
370
    25
100
AcDbLine
 10
7.1714518451
 20
127.6709069739
 30
0.0
 11
-30.2619209654
 21
138.9994272272
 31
0.0
  0
ARC
  5
9A
330
1F
100
AcDbEntity
  8
0
  6
Continuous
 62
     7
370
    25
100
AcDbCircle
 10
7.7507683248
 20
129.5851680021
 30
0.0
 40
2.0
100
AcDbArc
 50
253.1625273743
 51
270.0
  0
ARC
  5
9B
330
1F
100
AcDbEntity
  8
0
  6
Continuous
 62
     7
370
    25
100
AcDbCircle
 10
7.7507683248
 20
85.5851680021
 30
0.0
 40
2.000000000000006
100
AcDbArc
 50
90.0
 51
106.8374726257
  0
LINE
  5
9C
330
1F
100
AcDbEntity
  8
0
  6
Continuous
 62
     7
370
    25
100
AcDbLine
 10
56.454768204
 20
127.5851675551
 30
0.0
 11
7.7507680141
 21
127.5851675551
 31
0.0
  0
LINE
  5
9D
330
1F
100
AcDbEntity
  8
0
  6
Continuous
 62
     7
370
    25
100
AcDbLine
 10
7.7507680141
 20
87.5851684491
 30
0.0
 11
56.454768204
 21
87.5851684491
 31
0.0
  0
LINE
  5
9E
330
1F
100
AcDbEntity
  8
0
  6
Continuous
 62
     7
370
    25
100
AcDbLine
 10
-93.5452377565
 20
139.0851685088
 30
0.0
 11
-93.5452377565
 21
76.0851674955
 31
0.0
  0
LINE
  5
9F
330
1F
100
AcDbEntity
  8
0
  6
Continuous
 62
     7
370
    25
100
AcDbLine
 10
56.454768204
 20
127.5851675551
 30
0.0
 11
56.454768204
 21
87.5851684491
 31
0.0
  0
LINE
  5
A0
330
1F
100
AcDbEntity
  8
0
  6
Continuous
 62
     1
370
    25
100
AcDbLine
 10
-30.2619209654
 20
138.9994272272
 30
0.0
 11
-30.2619209654
 21
76.170908777
 31
0.0
  0
LINE
  5
A1
330
1F
100
AcDbEntity
  8
0
  6
Continuous
 62
     1
370
    25
100
AcDbLine
 10
-30.8412371344
 20
139.0851685088
 30
0.0
 11
-30.8412371344
 21
76.0851674955
 31
0.0
  0
LINE
  5
A2
330
1F
100
AcDbEntity
  8
0
  6
Continuous
 62
     1
370
    25
100
AcDbLine
 10
7.1714518451
 20
127.6709069739
 30
0.0
 11
7.1714518451
 21
87.4994290303
 31
0.0
  0
LINE
  5
A3
330
1F
100
AcDbEntity
  8
0
  6
Continuous
 62
     1
370
    25
100
AcDbLine
 10
7.7507680141
 20
127.5851675551
 30
0.0
 11
7.7507680141
 21
87.5851684491
 31
0.0
  0
ARC
  5
A4
330
1F
100
AcDbEntity
  8
0
  6
Continuous
 62
     7
370
    25
100
AcDbCircle
 10
300.3049645499
 20
78.0851680021
 30
0.0
 40
2.000000000000003
100
AcDbArc
 50
253.1625273743
 51
270.0
  0
ARC
  5
A5
330
1F
100
AcDbEntity
  8
0
  6
Continuous
 62
     7
370
    25
100
AcDbCircle
 10
300.3049645499
 20
137.0851680021
 30
0.0
 40
2.000000000000016
100
AcDbArc
 50
90.0
 51
106.8374726257
  0
LINE
  5
A6
330
1F
100
AcDbEntity
  8
0
  6
Continuous
 62
     7
370
    25
100
AcDbLine
 10
300.3049647701
 20
76.0851674955
 30
0.0
 11
363.0089653921
 21
76.0851674955
 31
0.0
  0
LINE
  5
A7
330
1F
100
AcDbEntity
  8
0
  6
Continuous
 62
     7
370
    25
100
AcDbLine
 10
363.0089653921
 20
139.0851685088
 30
0.0
 11
300.3049647701
 21
139.0851685088
 31
0.0
  0
LINE
  5
A8
330
1F
100
AcDbEntity
  8
0
  6
Continuous
 62
     7
370
    25
100
AcDbLine
 10
299.7256486011
 20
138.9994272272
 30
0.0
 11
262.2922757906
 21
127.6709069739
 31
0.0
  0
LINE
  5
A9
330
1F
100
AcDbEntity
  8
0
  6
Continuous
 62
     7
370
    25
100
AcDbLine
 10
262.2922757906
 20
87.4994290303
 30
0.0
 11
299.7256486011
 21
76.170908777
 31
0.0
  0
ARC
  5
AA
330
1F
100
AcDbEntity
  8
0
  6
Continuous
 62
     7
370
    25
100
AcDbCircle
 10
261.7129593109
 20
85.5851680021
 30
0.0
 40
2.000000000000003
100
AcDbArc
 50
73.1625273743
 51
90.0
  0
ARC
  5
AB
330
1F
100
AcDbEntity
  8
0
  6
Continuous
 62
     7
370
    25
100
AcDbCircle
 10
261.7129593109
 20
129.5851680021
 30
0.0
 40
2.0
100
AcDbArc
 50
270.0
 51
286.8374726257
  0
LINE
  5
AC
330
1F
100
AcDbEntity
  8
0
  6
Continuous
 62
     7
370
    25
100
AcDbLine
 10
213.0089594317
 20
87.5851684491
 30
0.0
 11
261.7129596216
 21
87.5851684491
 31
0.0
  0
LINE
  5
AD
330
1F
100
AcDbEntity
  8
0
  6
Continuous
 62
     7
370
    25
100
AcDbLine
 10
261.7129596216
 20
127.5851675551
 30
0.0
 11
213.0089594317
 21
127.5851675551
 31
0.0
  0
LINE
  5
AE
330
1F
100
AcDbEntity
  8
0
  6
Continuous
 62
     7
370
    25
100
AcDbLine
 10
363.0089653921
 20
107.5851680021
 30
0.0
 11
363.0089653921
 21
139.0851685088
 31
0.0
  0
LINE
  5
AF
330
1F
100
AcDbEntity
  8
0
  6
Continuous
 62
     7
370
    25
100
AcDbLine
 10
363.0089653921
 20
76.0851674955
 30
0.0
 11
363.0089653921
 21
107.5851680021
 31
0.0
  0
LINE
  5
B0
330
1F
100
AcDbEntity
  8
0
  6
Continuous
 62
     7
370
    25
100
AcDbLine
 10
213.0089594317
 20
107.5851680021
 30
0.0
 11
213.0089594317
 21
127.5851675551
 31
0.0
  0
LINE
  5
B1
330
1F
100
AcDbEntity
  8
0
  6
Continuous
 62
     7
370
    25
100
AcDbLine
 10
213.0089594317
 20
87.5851684491
 30
0.0
 11
213.0089594317
 21
107.5851680021
 31
0.0
  0
LINE
  5
B2
330
1F
100
AcDbEntity
  8
0
  6
Continuous
 62
     1
370
    25
100
AcDbLine
 10
299.7256486011
 20
107.5851680021
 30
0.0
 11
299.7256486011
 21
138.9994272272
 31
0.0
  0
LINE
  5
B3
330
1F
100
AcDbEntity
  8
0
  6
Continuous
 62
     1
370
    25
100
AcDbLine
 10
299.7256486011
 20
76.170908777
 30
0.0
 11
299.7256486011
 21
107.5851680021
 31
0.0
  0
LINE
  5
B4
330
1F
100
AcDbEntity
  8
0
  6
Continuous
 62
     1
370
    25
100
AcDbLine
 10
300.3049647701
 20
107.5851680021
 30
0.0
 11
300.3049647701
 21
139.0851685088
 31
0.0
  0
LINE
  5
B5
330
1F
100
AcDbEntity
  8
0
  6
Continuous
 62
     1
370
    25
100
AcDbLine
 10
300.3049647701
 20
76.0851674955
 30
0.0
 11
300.3049647701
 21
107.5851680021
 31
0.0
  0
LINE
  5
B6
330
1F
100
AcDbEntity
  8
0
  6
Continuous
 62
     1
370
    25
100
AcDbLine
 10
262.2922757906
 20
107.5851680021
 30
0.0
 11
262.2922757906
 21
127.6709069739
 31
0.0
  0
LINE
  5
B7
330
1F
100
AcDbEntity
  8
0
  6
Continuous
 62
     1
370
    25
100
AcDbLine
 10
262.2922757906
 20
87.4994290303
 30
0.0
 11
262.2922757906
 21
107.5851680021
 31
0.0
  0
LINE
  5
B8
330
1F
100
AcDbEntity
  8
0
  6
Continuous
 62
     1
370
    25
100
AcDbLine
 10
261.7129596216
 20
107.5851680021
 30
0.0
 11
261.7129596216
 21
127.5851675551
 31
0.0
  0
LINE
  5
B9
330
1F
100
AcDbEntity
  8
0
  6
Continuous
 62
     1
370
    25
100
AcDbLine
 10
261.7129596216
 20
87.5851684491
 30
0.0
 11
261.7129596216
 21
107.5851680021
 31
0.0
  0
ARC
  5
BA
330
1F
100
AcDbEntity
  8
0
  6
Continuous
 62
     7
370
    25
100
AcDbCircle
 10
168.895004093
 20
283.0569753888
 30
0.0
 40
2.0
100
AcDbArc
 50
343.1625273743
 51
0.0
  0
ARC
  5
BB
330
1F
100
AcDbEntity
  8
0
  6
Continuous
 62
     7
370
    25
100
AcDbCircle
 10
109.895004093
 20
283.0569753888
 30
0.0
 40
2.000000000000003
100
AcDbArc
 50
180.0
 51
196.8374726257
  0
LINE
  5
BC
330
1F
100
AcDbEntity
  8
0
  6
Continuous
 62
     7
370
    25
100
AcDbLine
 10
170.8950045997
 20
283.0569756089
 30
0.0
 11
170.8950045997
 21
345.760976231
 31
0.0
  0
LINE
  5
BD
330
1F
100
AcDbEntity
  8
0
  6
Continuous
 62
     7
370
    25
100
AcDbLine
 10
107.8950035864
 20
345.760976231
 30
0.0
 11
107.8950035864
 21
283.0569756089
 31
0.0
  0
LINE
  5
BE
330
1F
100
AcDbEntity
  8
0
  6
Continuous
 62
     7
370
    25
100
AcDbLine
 10
107.9807448679
 20
282.4776594399
 30
0.0
 11
119.3092651212
 21
245.0442866294
 31
0.0
  0
LINE
  5
BF
330
1F
100
AcDbEntity
  8
0
  6
Continuous
 62
     7
370
    25
100
AcDbLine
 10
159.4807430649
 20
245.0442866294
 30
0.0
 11
170.8092633182
 21
282.4776594399
 31
0.0
  0
ARC
  5
C0
330
1F
100
AcDbEntity
  8
0
  6
Continuous
 62
     7
370
    25
100
AcDbCircle
 10
161.395004093
 20
244.4649701497
 30
0.0
 40
2.000000000000028
100
AcDbArc
 50
163.1625273743
 51
180.0
  0
ARC
  5
C1
330
1F
100
AcDbEntity
  8
0
  6
Continuous
 62
     7
370
    25
100
AcDbCircle
 10
117.395004093
 20
244.4649701497
 30
0.0
 40
2.000000000000014
100
AcDbArc
 50
0.0
 51
16.8374726257
  0
LINE
  5
C2
330
1F
100
AcDbEntity
  8
0
  6
Continuous
 62
     7
370
    25
100
AcDbLine
 10
159.395003646
 20
195.7609702705
 30
0.0
 11
159.395003646
 21
244.4649704604
 31
0.0
  0
LINE
  5
C3
330
1F
100
AcDbEntity
  8
0
  6
Continuous
 62
     7
370
    25
100
AcDbLine
 10
119.3950045401
 20
244.4649704604
 30
0.0
 11
119.3950045401
 21
195.7609702705
 31
0.0
  0
LINE
  5
C4
330
1F
100
AcDbEntity
  8
0
  6
Continuous
 62
     7
370
    25
100
AcDbLine
 10
170.8950045997
 20
345.760976231
 30
0.0
 11
107.8950035864
 21
345.760976231
 31
0.0
  0
LINE
  5
C5
330
1F
100
AcDbEntity
  8
0
  6
Continuous
 62
     7
370
    25
100
AcDbLine
 10
159.395003646
 20
195.7609702705
 30
0.0
 11
119.3950045401
 21
195.7609702705
 31
0.0
  0
LINE
  5
C6
330
1F
100
AcDbEntity
  8
0
  6
Continuous
 62
     1
370
    25
100
AcDbLine
 10
170.8092633182
 20
282.4776594399
 30
0.0
 11
107.9807448679
 21
282.4776594399
 31
0.0
  0
LINE
  5
C7
330
1F
100
AcDbEntity
  8
0
  6
Continuous
 62
     1
370
    25
100
AcDbLine
 10
170.8950045997
 20
283.0569756089
 30
0.0
 11
107.8950035864
 21
283.0569756089
 31
0.0
  0
LINE
  5
C8
330
1F
100
AcDbEntity
  8
0
  6
Continuous
 62
     1
370
    25
100
AcDbLine
 10
159.4807430649
 20
245.0442866294
 30
0.0
 11
119.3092651212
 21
245.0442866294
 31
0.0
  0
LINE
  5
C9
330
1F
100
AcDbEntity
  8
0
  6
Continuous
 62
     1
370
    25
100
AcDbLine
 10
159.395003646
 20
244.4649704604
 30
0.0
 11
119.3950045401
 21
244.4649704604
 31
0.0
  0
ARC
  5
CA
330
1F
100
AcDbEntity
  8
0
  6
Continuous
 62
     7
370
    25
100
AcDbCircle
 10
109.895004093
 20
-56.4704236121
 30
0.0
 40
2.000000000000007
100
AcDbArc
 50
163.1625273743
 51
180.0
  0
ARC
  5
CB
330
1F
100
AcDbEntity
  8
0
  6
Continuous
 62
     7
370
    25
100
AcDbCircle
 10
168.895004093
 20
-56.4704236121
 30
0.0
 40
2.0
100
AcDbArc
 50
0.0
 51
16.8374726257
  0
LINE
  5
CC
330
1F
100
AcDbEntity
  8
0
  6
Continuous
 62
     7
370
    25
100
AcDbLine
 10
107.8950035864
 20
-56.4704238323
 30
0.0
 11
107.8950035864
 21
-119.1744244543
 31
0.0
  0
LINE
  5
CD
330
1F
100
AcDbEntity
  8
0
  6
Continuous
 62
     7
370
    25
100
AcDbLine
 10
170.8950045997
 20
-119.1744244543
 30
0.0
 11
170.8950045997
 21
-56.4704238323
 31
0.0
  0
LINE
  5
CE
330
1F
100
AcDbEntity
  8
0
  6
Continuous
 62
     7
370
    25
100
AcDbLine
 10
170.8092633182
 20
-55.8911076633
 30
0.0
 11
159.4807430649
 21
-18.4577348528
 31
0.0
  0
LINE
  5
CF
330
1F
100
AcDbEntity
  8
0
  6
Continuous
 62
     7
370
    25
100
AcDbLine
 10
119.3092651212
 20
-18.4577348528
 30
0.0
 11
107.9807448679
 21
-55.8911076633
 31
0.0
  0
ARC
  5
D0
330
1F
100
AcDbEntity
  8
0
  6
Continuous
 62
     7
370
    25
100
AcDbCircle
 10
117.395004093
 20
-17.8784183731
 30
0.0
 40
2.000000000000014
100
AcDbArc
 50
343.1625273743
 51
0.0
  0
ARC
  5
D1
330
1F
100
AcDbEntity
  8
0
  6
Continuous
 62
     7
370
    25
100
AcDbCircle
 10
161.395004093
 20
-17.8784183731
 30
0.0
 40
2.000000000000028
100
AcDbArc
 50
180.0
 51
196.8374726257
  0
LINE
  5
D2
330
1F
100
AcDbEntity
  8
0
  6
Continuous
 62
     7
370
    25
100
AcDbLine
 10
119.3950045401
 20
30.8255815061
 30
0.0
 11
119.3950045401
 21
-17.8784186838
 31
0.0
  0
LINE
  5
D3
330
1F
100
AcDbEntity
  8
0
  6
Continuous
 62
     7
370
    25
100
AcDbLine
 10
159.395003646
 20
-17.8784186838
 30
0.0
 11
159.395003646
 21
30.8255815061
 31
0.0
  0
LINE
  5
D4
330
1F
100
AcDbEntity
  8
0
  6
Continuous
 62
     7
370
    25
100
AcDbLine
 10
107.8950035864
 20
-119.1744244543
 30
0.0
 11
170.8950045997
 21
-119.1744244543
 31
0.0
  0
LINE
  5
D5
330
1F
100
AcDbEntity
  8
0
  6
Continuous
 62
     7
370
    25
100
AcDbLine
 10
119.3950045401
 20
30.8255815061
 30
0.0
 11
159.395003646
 21
30.8255815061
 31
0.0
  0
LINE
  5
D6
330
1F
100
AcDbEntity
  8
0
  6
Continuous
 62
     1
370
    25
100
AcDbLine
 10
107.9807448679
 20
-55.8911076633
 30
0.0
 11
170.8092633182
 21
-55.8911076633
 31
0.0
  0
LINE
  5
D7
330
1F
100
AcDbEntity
  8
0
  6
Continuous
 62
     1
370
    25
100
AcDbLine
 10
107.8950035864
 20
-56.4704238323
 30
0.0
 11
170.8950045997
 21
-56.4704238323
 31
0.0
  0
LINE
  5
D8
330
1F
100
AcDbEntity
  8
0
  6
Continuous
 62
     1
370
    25
100
AcDbLine
 10
119.3092651212
 20
-18.4577348528
 30
0.0
 11
159.4807430649
 21
-18.4577348528
 31
0.0
  0
LINE
  5
D9
330
1F
100
AcDbEntity
  8
0
  6
Continuous
 62
     1
370
    25
100
AcDbLine
 10
119.3950045401
 20
-17.8784186838
 30
0.0
 11
159.395003646
 21
-17.8784186838
 31
0.0
  0
LINE
  5
DA
330
1F
100
AcDbEntity
  8
0
  6
Continuous
 62
     7
370
    25
100
AcDbLine
 10
290.7150713539
 20
8.6174870832
 30
0.0
 11
246.3766473066
 21
34.213514459
 31
0.0
  0
LINE
  5
DB
330
1F
100
AcDbEntity
  8
0
  6
Continuous
 62
     7
370
    25
100
AcDbLine
 10
214.879206328
 20
-20.3475637818
 30
0.0
 11
259.2176303753
 21
-45.9435911576
 31
0.0
  0
SPLINE
  5
DC
330
1F
100
AcDbEntity
  8
0
  6
Continuous
 62
     7
370
    25
100
AcDbSpline
210
0.0
220
0.0
230
1.0
 70
     8
 71
     3
 72
    12
 73
     8
 74
     0
 42
0.000000001
 43
0.00000001
 40
0.0
 40
0.0
 40
0.0
 40
0.0
 40
0.124668066382393
 40
0.3789530744087832
 40
0.6311944305340476
 40
0.8818281063829484
 40
1.0
 40
1.0
 40
1.0
 40
1.0
 10
294.1049311844213
 20
5.683460169838138
 30
0.0
 10
293.985274374024
 20
5.835558931790177
 30
0.0
 10
293.6215539964659
 20
6.297892993174403
 30
0.0
 10
292.9393714020347
 20
6.982303998462871
 30
0.0
 10
292.0656556979304
 20
7.728311528561682
 30
0.0
 10
291.3039012317461
 20
8.279157888432989
 30
0.0
 10
290.8166914620001
 20
8.547356470534561
 30
0.0
 10
290.6605807471782
 20
8.633292087933835
 30
0.0
  0
SPLINE
  5
DD
330
1F
100
AcDbEntity
  8
0
  6
Continuous
 62
     7
370
    25
100
AcDbSpline
210
0.0
220
0.0
230
1.0
 70
     8
 71
     3
 72
    11
 73
     7
 74
     0
 42
0.000000001
 43
0.00000001
 40
0.0
 40
0.0
 40
0.0
 40
0.0
 40
0.2542678174932376
 40
0.5150267193523371
 40
0.7762797252315686
 40
1.0
 40
1.0
 40
1.0
 40
1.0
 10
259.2383442342924
 20
-45.95398744611721
 30
0.0
 10
259.5607283784691
 20
-46.12869068401195
 30
0.0
 10
260.213726661081
 20
-46.48255707717258
 30
0.0
 10
261.2608547563254
 20
-46.89352504805954
 30
0.0
 10
262.300001848433
 20
-47.21159737512268
 30
0.0
 10
263.0043292446515
 20
-47.33959137952315
 30
0.0
 10
263.3292385229493
 20
-47.39863556809152
 30
0.0
  0
LINE
  5
DE
330
1F
100
AcDbEntity
  8
0
  6
Continuous
 62
     7
370
    25
100
AcDbLine
 10
263.39577786
 20
-47.4161875836
 30
0.0
 11
294.1854389091
 21
-52.4130470591
 31
0.0
  0
LINE
  5
DF
330
1F
100
AcDbEntity
  8
0
  6
Continuous
 62
     7
370
    25
100
AcDbLine
 10
313.8042265913
 20
-18.4286287093
 30
0.0
 11
294.079720125
 21
5.7357189859
 31
0.0
  0
LINE
  5
E0
330
1F
100
AcDbEntity
  8
0
  6
Continuous
 62
     7
370
    25
100
AcDbLine
 10
346.6931352368
 20
-36.9766587447
 30
0.0
 11
313.127581329
 21
-17.5996769244
 31
0.0
  0
LINE
  5
E1
330
1F
100
AcDbEntity
  8
0
  6
Continuous
 62
     7
370
    25
100
AcDbLine
 10
293.1292072752
 20
-52.2416303974
 30
0.0
 11
326.6947611831
 21
-71.6186122178
 31
0.0
  0
LWPOLYLINE
  5
E2
330
1F
100
AcDbEntity
  8
0
  6
Continuous
 62
     7
370
    25
100
AcDbPolyline
 90
      103
 70
   128
 43
0.0
 10
208.3540628517
 20
-5.9254526295
 10
208.3963097989
 20
-4.3176537244
 10
208.5228873217
 20
-2.6671783305
 10
208.7333186338
 20
-0.9802851077
 10
209.026801628
 20
0.7366247279
 10
209.4022273152
 20
2.4770407673
 10
209.8581679712
 20
4.2343585245
 10
210.3928955749
 20
6.0019130844
 10
211.0043818095
 20
7.7730003965
 10
211.6903059639
 20
9.5409004681
 10
212.4480681046
 20
11.2989077814
 10
213.274791709
 20
13.0403525861
 10
214.1673434224
 20
14.7586320771
 10
215.1223343749
 20
16.4472256031
 10
216.1361438886
 20
18.0997281248
 10
217.2049247465
 20
19.7098699868
 10
218.3246242659
 20
21.2715458127
 10
219.4909948345
 20
22.7788312347
 10
220.6996116918
 20
24.2260083673
 10
221.9458893925
 20
25.607585958
 10
223.2251015625
 20
26.9183244807
 10
224.5323947289
 20
28.153251724
 10
225.8628103808
 20
29.3076831315
 10
227.2113020916
 20
30.3772392906
 10
228.5727539584
 20
31.3578626612
 10
229.9420018808
 20
32.2458344228
 10
231.3138517537
 20
33.0377864973
 10
232.6830996762
 20
33.7307147365
 10
234.0445515429
 20
34.3219902324
 10
235.3930432537
 20
34.8093694624
 10
236.7234589056
 20
35.1910032705
 10
238.0307520721
 20
35.4654445893
 10
239.3099642421
 20
35.6316530004
 10
240.5562419428
 20
35.6889970146
 10
241.7648588001
 20
35.6372592027
 10
242.9312293687
 20
35.4766365747
 10
244.050928888
 20
35.2077382963
 10
245.119709746
 20
34.8315845467
 10
246.1335192597
 20
34.3496015743
 10
247.0885102121
 20
33.7636171323
 10
247.9810619256
 20
33.0758559145
 10
248.80778553
 20
32.288925866
 10
249.5655476706
 20
31.4058120977
 10
250.2514718251
 20
30.4298631976
 10
250.8629580596
 20
29.3647828641
 10
251.3976856634
 20
28.2146116541
 10
251.8536263193
 20
26.9837117732
 10
252.2290520066
 20
25.6767530059
 10
252.5225350008
 20
24.2986914228
 10
252.7329663128
 20
22.8547570214
 10
252.8595438356
 20
21.3504249246
 10
252.9017907829
 20
19.7914033066
 10
252.8595438356
 20
18.1836044016
 10
252.7329663128
 20
16.5331290077
 10
252.5225350008
 20
14.8462357848
 10
252.2290520066
 20
13.1293259493
 10
251.8536263193
 20
11.3889099098
 10
251.3976856634
 20
9.6315921527
 10
250.8629580596
 20
7.8640375928
 10
250.2514718251
 20
6.0929502806
 10
249.5655476706
 20
4.325050209
 10
248.80778553
 20
2.5670428958
 10
247.9810619256
 20
0.825598091
 10
247.0885102121
 20
-0.8926814
 10
246.1335192597
 20
-2.581274926
 10
245.119709746
 20
-4.2337774477
 10
244.050928888
 20
-5.8439193097
 10
242.9312293687
 20
-7.4055951355
 10
241.7648588001
 20
-8.9128805575
 10
240.5562419428
 20
-10.3600576901
 10
239.3099642421
 20
-11.7416352808
 10
238.0307520721
 20
-13.0523738036
 10
236.7234589056
 20
-14.2873010469
 10
235.3930432537
 20
-15.4417324544
 10
234.0445515429
 20
-16.5112886134
 10
232.6830996762
 20
-17.4919119841
 10
231.3138517537
 20
-18.3798837457
 10
229.9420018808
 20
-19.1718358201
 10
228.5727539584
 20
-19.8647640594
 10
227.2113020916
 20
-20.4560395553
 10
225.8628103808
 20
-20.9434187852
 10
224.5323947289
 20
-21.3250525934
 10
223.2251015625
 20
-21.5994939122
 10
221.9458893925
 20
-21.7657023233
 10
220.6996116918
 20
-21.8230463374
 10
219.4909948345
 20
-21.7713085256
 10
218.3246242659
 20
-21.6106858975
 10
217.2049247465
 20
-21.3417876191
 10
216.1361438886
 20
-20.9656338696
 10
215.1223343749
 20
-20.4836508972
 10
214.1673434224
 20
-19.8976664552
 10
213.274791709
 20
-19.2099052373
 10
212.4480681046
 20
-18.4229751888
 10
211.6903059639
 20
-17.5398614205
 10
211.0043818095
 20
-16.5639125205
 10
210.3928955749
 20
-15.498832187
 10
209.8581679712
 20
-14.348660977
 10
209.4022273152
 20
-13.1177610961
 10
209.026801628
 20
-11.8108023288
 10
208.7333186338
 20
-10.4327407457
 10
208.5228873217
 20
-8.9888063442
 10
208.3963097989
 20
-7.4844742474
 10
208.3540628517
 20
-5.9254526295
  0
LWPOLYLINE
  5
E3
330
1F
100
AcDbEntity
  8
0
  6
Continuous
 62
     7
370
    25
100
AcDbPolyline
 90
       93
 70
   128
 43
0.0
 10
212.4552831182
 20
-3.557868565
 10
212.4976472864
 20
-2.1013384778
 10
212.6245435447
 20
-0.6026859179
 10
212.8353805202
 20
0.9311013719
 10
213.1291730303
 20
2.4928718056
 10
213.5045539366
 20
4.0753442695
 10
213.9597715106
 20
5.6711405369
 10
214.4927052391
 20
7.2728208179
 10
215.100867141
 20
8.872915319
 10
215.7814241577
 20
10.4639656861
 10
216.5312021047
 20
12.0385523806
 10
217.3467054278
 20
13.5893342216
 10
218.224131691
 20
15.1090810849
 10
219.1593900158
 20
16.5907073611
 10
220.148120179
 20
18.0273050341
 10
221.1857123691
 20
19.4121763794
 10
222.2673282595
 20
20.7388628593
 10
223.387925375
 20
22.0011820036
 10
224.5422788234
 20
23.1932445174
 10
225.7250059912
 20
24.3094943936
 10
226.9305932146
 20
25.3447258303
 10
228.1534186636
 20
26.2941146934
 10
229.38778173
 20
27.1532324394
 10
230.6279268173
 20
27.9180735373
 10
231.8680719045
 20
28.5850734795
 10
233.102434971
 20
29.1511209946
 10
234.32526042
 20
29.613576343
 10
235.5308476433
 20
29.970286286
 10
236.7135748111
 20
30.2195841313
 10
237.8679282595
 20
30.3603097399
 10
238.988525375
 20
30.3918044855
 10
240.0701412655
 20
30.313925131
 10
241.1077334555
 20
30.1270322287
 10
242.0964636187
 20
29.8319981032
 10
243.0317219435
 20
29.4301981041
 10
243.9091482067
 20
28.9235060408
 10
244.7246515298
 20
28.314284295
 10
245.4744294768
 20
27.6053727918
 10
246.1549864935
 20
26.8000768309
 10
246.7631483954
 20
25.9021511155
 10
247.2960821239
 20
24.9157830202
 10
247.751299698
 20
23.8455697765
 10
248.1266806043
 20
22.6965028817
 10
248.4204731143
 20
21.4739380599
 10
248.6313100898
 20
20.1835779606
 10
248.7582063482
 20
18.8314367019
 10
248.8005705164
 20
17.4238192422
 10
248.7582063482
 20
15.9672891549
 10
248.6313100898
 20
14.468636595
 10
248.4204731143
 20
12.9348493053
 10
248.1266806043
 20
11.3730788715
 10
247.751299698
 20
9.7906064076
 10
247.2960821239
 20
8.1948101403
 10
246.7631483954
 20
6.5931298593
 10
246.1549864935
 20
4.9930353581
 10
245.4744294768
 20
3.401984991
 10
244.7246515298
 20
1.8273982966
 10
243.9091482067
 20
0.2766164555
 10
243.0317219435
 20
-1.2431304078
 10
242.0964636187
 20
-2.7247566839
 10
241.1077334555
 20
-4.1613543569
 10
240.0701412655
 20
-5.5462257022
 10
238.988525375
 20
-6.8729121822
 10
237.8679282595
 20
-8.1352313265
 10
236.7135748111
 20
-9.3272938403
 10
235.5308476433
 20
-10.4435437164
 10
234.32526042
 20
-11.4787751532
 10
233.102434971
 20
-12.4281640163
 10
231.8680719045
 20
-13.2872817623
 10
230.6279268173
 20
-14.0521228601
 10
229.38778173
 20
-14.7191228024
 10
228.1534186636
 20
-15.2851703175
 10
226.9305932146
 20
-15.7476256658
 10
225.7250059912
 20
-16.1043356088
 10
224.5422788234
 20
-16.3536334542
 10
223.387925375
 20
-16.4943590627
 10
222.2673282595
 20
-16.5258538084
 10
221.1857123691
 20
-16.4479744538
 10
220.148120179
 20
-16.2610815515
 10
219.1593900158
 20
-15.9660474261
 10
218.224131691
 20
-15.564247427
 10
217.3467054278
 20
-15.0575553637
 10
216.5312021047
 20
-14.4483336178
 10
215.7814241577
 20
-13.7394221146
 10
215.100867141
 20
-12.9341261538
 10
214.4927052391
 20
-12.0362004384
 10
213.9597715106
 20
-11.0498323431
 10
213.5045539366
 20
-9.9796190994
 10
213.1291730303
 20
-8.8305522045
 10
212.8353805202
 20
-7.6079873827
 10
212.6245435447
 20
-6.3176272834
 10
212.4976472864
 20
-4.9654860248
 10
212.4552831182
 20
-3.557868565
  0
LINE
  5
E4
330
1F
100
AcDbEntity
  8
0
  6
Continuous
 62
     7
370
    25
100
AcDbLine
 10
294.079720125
 20
5.7357189859
 30
0.0
 11
294.1105136662
 21
5.6978374398
 31
0.0
  0
LINE
  5
E5
330
1F
100
AcDbEntity
  8
0
  6
Continuous
 62
     7
370
    25
100
AcDbLine
 10
263.39577786
 20
-47.4161875836
 30
0.0
 11
263.3337047718
 21
-47.4059451681
 31
0.0
  0
LWPOLYLINE
  5
E6
330
1F
100
AcDbEntity
  8
0
  6
Continuous
 62
     7
370
    25
100
AcDbPolyline
 90
       42
 70
   128
 43
0.0
 10
346.6931352368
 20
-36.9766587447
 10
347.1668223502
 20
-37.277336987
 10
347.8717889776
 20
-37.8405380746
 10
348.5095300646
 20
-38.5027154645
 10
349.076211565
 20
-39.2598839716
 10
349.5684248524
 20
-40.107491145
 10
349.9832091107
 20
-41.0404404649
 10
350.3180697734
 20
-42.0531198614
 10
350.5709943284
 20
-43.1394387883
 10
350.7404602208
 20
-44.2928647266
 10
350.8254480238
 20
-45.5064608283
 10
350.8254480238
 20
-46.7729277424
 10
350.7404602208
 20
-48.0846486727
 10
350.5709943284
 20
-49.4337357657
 10
350.3180697734
 20
-50.812075168
 10
349.9832091107
 20
-52.2113764561
 10
349.5684248524
 20
-53.623225487
 10
349.076211565
 20
-55.0391300256
 10
348.5095300646
 20
-56.4505750663
 10
347.8717889776
 20
-57.8490726423
 10
347.1668223502
 20
-59.2262108727
 10
346.3988705503
 20
-60.5737083344
 10
345.5725526093
 20
-61.8834604474
 10
344.6928372454
 20
-63.1475904228
 10
343.7650158638
 20
-64.3584967901
 10
342.7946683119
 20
-65.5088952184
 10
341.7876302821
 20
-66.5918685146
 10
340.7499584082
 20
-67.6009012207
 10
339.6878930579
 20
-68.5299269493
 10
338.6078217836
 20
-69.3733586086
 10
337.5162403037
 20
-70.1261230947
 10
336.4197133605
 20
-70.7836930136
 10
335.3248357419
 20
-71.3421137454
 10
334.2381921111
 20
-71.7980281554
 10
333.1663175757
 20
-72.148691752
 10
332.1156588748
 20
-72.3919966143
 10
331.0925345783
 20
-72.5264806798
 10
330.1030977968
 20
-72.5513340626
 10
329.1532988093
 20
-72.4664084603
 10
328.2488504893
 20
-72.2722127785
 10
327.3951917559
 20
-71.9699167392
 10
326.6947611831
 20
-71.6186122178
  0
LWPOLYLINE
  5
E7
330
1F
100
AcDbEntity
  8
0
  6
Continuous
 62
     1
370
    25
100
AcDbPolyline
 90
       53
 70
   128
 43
0.0
 10
290.7150713539
 20
8.6174870832
 10
291.4269342595
 20
8.1675897566
 10
292.3194859729
 20
7.4798285387
 10
293.1462095774
 20
6.6928984902
 10
293.903971718
 20
5.8097847219
 10
294.5898958724
 20
4.8338358219
 10
295.201382107
 20
3.7687554883
 10
295.7361097107
 20
2.6185842784
 10
296.1920503667
 20
1.3876843974
 10
296.567476054
 20
0.0807256301
 10
296.8609590481
 20
-1.297335953
 10
297.0713903602
 20
-2.7412703544
 10
297.197967883
 20
-4.2456024512
 10
297.2402148303
 20
-5.8046240692
 10
297.197967883
 20
-7.4124229742
 10
297.0713903602
 20
-9.0628983681
 10
296.8609590481
 20
-10.7497915909
 10
296.567476054
 20
-12.4667014265
 10
296.1920503667
 20
-14.207117466
 10
295.7361097107
 20
-15.9644352231
 10
295.201382107
 20
-17.731989783
 10
294.5898958724
 20
-19.5030770952
 10
293.903971718
 20
-21.2709771668
 10
293.1462095774
 20
-23.02898448
 10
292.3194859729
 20
-24.7704292848
 10
291.4269342595
 20
-26.4887087758
 10
290.471943307
 20
-28.1773023018
 10
289.4581337933
 20
-29.8298048235
 10
288.3893529354
 20
-31.4399466854
 10
287.2696534161
 20
-33.0016225113
 10
286.1032828475
 20
-34.5089079333
 10
284.8946659901
 20
-35.9560850659
 10
283.6483882895
 20
-37.3376626566
 10
282.3691761194
 20
-38.6484011793
 10
281.061882953
 20
-39.8833284227
 10
279.7314673011
 20
-41.0377598301
 10
278.3829755903
 20
-42.1073159892
 10
277.0215237235
 20
-43.0879393599
 10
275.6522758011
 20
-43.9759111214
 10
274.2804259282
 20
-44.7678631959
 10
272.9111780057
 20
-45.4607914352
 10
271.549726139
 20
-46.0520669311
 10
270.2012344282
 20
-46.539446161
 10
268.8708187763
 20
-46.9210799692
 10
267.5635256099
 20
-47.1955212879
 10
266.2843134398
 20
-47.3617296991
 10
265.0380357392
 20
-47.4190737132
 10
263.8294188818
 20
-47.3673359013
 10
262.6630483132
 20
-47.2067132733
 10
261.5433487939
 20
-46.9378149949
 10
260.4745679359
 20
-46.5616612454
 10
259.4607584222
 20
-46.079678273
 10
259.2176303753
 20
-45.9435911576
  0
LWPOLYLINE
  5
E8
330
1F
100
AcDbEntity
  8
0
  6
Continuous
 62
     1
370
    25
100
AcDbPolyline
 90
       46
 70
   128
 43
0.0
 10
294.1105136662
 20
5.6978374398
 10
294.2620631967
 20
5.5066915182
 10
294.9461210361
 20
4.5334006111
 10
295.5559437872
 20
3.4712200786
 10
296.0892160076
 20
2.3241790705
 10
296.5439159656
 20
1.0966299055
 10
296.9183182748
 20
-0.2067724611
 10
297.211003113
 20
-1.5810826059
 10
297.4208614913
 20
-3.0210866912
 10
297.5470939368
 20
-4.5213245185
 10
297.5892249803
 20
-6.0761032179
 10
297.5470939368
 20
-7.6795253847
 10
297.4208614913
 20
-9.3255080913
 10
297.211003113
 20
-11.0078095028
 10
296.9183182748
 20
-12.7200463688
 10
296.5439159656
 20
-14.4557244403
 10
296.0892160076
 20
-16.2082590022
 10
295.5559437872
 20
-17.9710030104
 10
294.9461210361
 20
-19.7372699044
 10
294.2620631967
 20
-21.5003571815
 10
293.5063649346
 20
-23.2535790954
 10
292.6818909182
 20
-24.9902849065
 10
291.791769234
 20
-26.7038870183
 10
290.8393768982
 20
-28.3878853109
 10
289.8283280031
 20
-30.0358891932
 10
288.7624552776
 20
-31.6416495408
 10
287.6458035023
 20
-33.1990746651
 10
286.4826071182
 20
-34.7022569272
 10
285.2772810078
 20
-36.1454932697
 10
284.0343948114
 20
-37.5233106896
 10
282.7586650247
 20
-38.8304814472
 10
281.4549299742
 20
-40.0620481587
 10
280.1281353293
 20
-41.2133367226
 10
278.7833143456
 20
-42.2799829347
 10
277.4255681088
 20
-43.2579378085
 10
276.0600471778
 20
-44.1434933826
 10
274.6919313346
 20
-44.9332898476
 10
273.3264104036
 20
-45.6243311816
 10
271.9686641668
 20
-46.213996745
 10
270.6238431831
 20
-46.7000477907
 10
269.2970485382
 20
-47.0806437167
 10
267.9933134877
 20
-47.3543374541
 10
266.7175837011
 20
-47.5200929561
 10
265.4746975046
 20
-47.5772813936
 10
264.2693713942
 20
-47.5256849564
 10
263.39577786
 20
-47.4161875836
  0
LWPOLYLINE
  5
E9
330
1F
100
AcDbEntity
  8
0
  6
Continuous
 62
     1
370
    25
100
AcDbPolyline
 90
       37
 70
   128
 43
0.0
 10
313.8042265913
 20
-18.4286287093
 10
314.2807270068
 20
-19.0777680425
 10
314.7750502708
 20
-19.9290089057
 10
315.1916125994
 20
-20.8659576668
 10
315.5279088891
 20
-21.8829783003
 10
315.7819174083
 20
-22.9739544037
 10
315.9521090168
 20
-24.1323255102
 10
316.0374629705
 20
-25.3511232124
 10
316.0374629705
 20
-26.6230194514
 10
315.9521090168
 20
-27.9403647309
 10
315.7819174083
 20
-29.2952348859
 10
315.5279088891
 20
-30.6794829831
 10
315.1916125994
 20
-32.084783048
 10
314.7750502708
 20
-33.5026844363
 10
314.2807270068
 20
-34.9246587916
 10
313.7116154772
 20
-36.342155368
 10
313.0711401134
 20
-37.7466481769
 10
312.3631520838
 20
-39.1296895973
 10
311.59190822
 20
-40.4829643669
 10
310.7620473095
 20
-41.7983321658
 10
309.8785611197
 20
-43.067880846
 10
308.9467621292
 20
-44.2839777597
 10
307.9722552103
 20
-45.4393081601
 10
306.9608997627
 20
-46.5269229167
 10
305.9187790914
 20
-47.5402820491
 10
304.8521608936
 20
-48.4732912254
 10
303.7674593928
 20
-49.3203388315
 10
302.6711982134
 20
-50.07632957
 10
301.5699705383
 20
-50.7367196285
 10
300.4703991849
 20
-51.2975336432
 10
299.3790970926
 20
-51.7554011977
 10
298.3026275628
 20
-52.1075691291
 10
297.2474647468
 20
-52.3519182547
 10
296.2199542146
 20
-52.4869785296
 10
295.2262757479
 20
-52.5119383594
 10
294.2724049797
 20
-52.4266484935
 10
294.1854389091
 20
-52.4130470591
  0
LWPOLYLINE
  5
EA
330
1F
100
AcDbEntity
  8
0
  6
Continuous
 62
     1
370
    25
100
AcDbPolyline
 90
       40
 70
   128
 43
0.0
 10
313.388214806
 20
-17.9189752846
 10
313.4328601724
 20
-17.9593676579
 10
314.0706012594
 20
-18.6215450479
 10
314.6372827598
 20
-19.3787135549
 10
315.1294960472
 20
-20.2263207284
 10
315.5442803055
 20
-21.1592700483
 10
315.8791409682
 20
-22.1719494447
 10
316.1320655232
 20
-23.2582683717
 10
316.3015314156
 20
-24.41169431
 10
316.3865192186
 20
-25.6252904117
 10
316.3865192186
 20
-26.8917573258
 10
316.3015314156
 20
-28.2034782561
 10
316.1320655232
 20
-29.5525653491
 10
315.8791409682
 20
-30.9309047514
 10
315.5442803055
 20
-32.3302060395
 10
315.1294960472
 20
-33.7420550704
 10
314.6372827598
 20
-35.1579596089
 10
314.0706012594
 20
-36.5694046497
 10
313.4328601724
 20
-37.9679022256
 10
312.727893545
 20
-39.3450404561
 10
311.9599417451
 20
-40.6925379178
 10
311.1336238041
 20
-42.0022900307
 10
310.2539084402
 20
-43.2664200062
 10
309.3260870586
 20
-44.4773263735
 10
308.3557395068
 20
-45.6277248018
 10
307.348701477
 20
-46.710698098
 10
306.311029603
 20
-47.7197308041
 10
305.2489642527
 20
-48.6487565327
 10
304.1688929784
 20
-49.492188192
 10
303.0773114986
 20
-50.244952678
 10
301.9807845553
 20
-50.902522597
 10
300.8859069367
 20
-51.4609433288
 10
299.7992633059
 20
-51.9168577388
 10
298.7273887705
 20
-52.2675213354
 10
297.6767300696
 20
-52.5108261977
 10
296.6536057731
 20
-52.6453102632
 10
295.6641689916
 20
-52.6701636459
 10
294.7143700041
 20
-52.5852380437
 10
293.8099216841
 20
-52.3910423619
 10
293.5360508039
 20
-52.3076581437
  0
ENDSEC
  0
SECTION
  2
OBJECTS
  0
DICTIONARY
  5
C
330
0
100
AcDbDictionary
281
     1
  3
ACAD_GROUP
350
D
  3
ACAD_LAYOUT
350
1A
  3
ACAD_MLINESTYLE
350
17
  3
ACAD_PLOTSETTINGS
350
19
  3
ACAD_PLOTSTYLENAME
350
E
  3
ACAD_SCALELIST
350
47
  0
DICTIONARY
  5
D
102
{ACAD_REACTORS
330
C
102
}
330
C
100
AcDbDictionary
281
     1
  0
DICTIONARY
  5
1A
102
{ACAD_REACTORS
330
C
102
}
330
C
100
AcDbDictionary
281
     1
  3
Layout1
350
1E
  3
Layout2
350
26
  3
Model
350
22
  0
DICTIONARY
  5
17
102
{ACAD_REACTORS
330
C
102
}
330
C
100
AcDbDictionary
281
     1
  3
Standard
350
18
  0
DICTIONARY
  5
19
102
{ACAD_REACTORS
330
C
102
}
330
C
100
AcDbDictionary
281
     1
  0
ACDBDICTIONARYWDFLT
  5
E
102
{ACAD_REACTORS
330
C
102
}
330
C
100
AcDbDictionary
281
     1
  3
Normal
350
F
100
AcDbDictionaryWithDefault
340
F
  0
DICTIONARY
  5
47
102
{ACAD_REACTORS
330
C
102
}
330
C
100
AcDbDictionary
281
     1
  3
A0
350
48
  3
A1
350
49
  3
A2
350
4A
  3
A3
350
4B
  3
A4
350
4C
  3
A5
350
4D
  3
A6
350
4E
  3
A7
350
4F
  3
A8
350
50
  3
A9
350
51
  3
B0
350
52
  3
B1
350
53
  3
B2
350
54
  3
B3
350
55
  3
B4
350
56
  3
B5
350
57
  3
B6
350
58
  3
B7
350
59
  3
B8
350
5A
  3
B9
350
5B
  3
C0
350
5C
  3
C1
350
5D
  3
C2
350
5E
  3
C3
350
5F
  3
C4
350
60
  3
C5
350
61
  3
C6
350
62
  3
C7
350
63
  3
C8
350
64
  3
C9
350
65
  3
D0
350
66
  3
D1
350
67
  3
D2
350
68
  0
LAYOUT
  5
1E
102
{ACAD_REACTORS
330
1A
102
}
330
1A
100
AcDbPlotSettings
  1

  2
none_device
  4

  6

 40
0.0
 41
0.0
 42
0.0
 43
0.0
 44
0.0
 45
0.0
 46
0.0
 47
0.0
 48
0.0
 49
0.0
140
0.0
141
0.0
142
1.0
143
1.0
 70
   688
 72
     1
 73
     0
 74
     5
  7

 75
    16
147
1.0
148
0.0
149
0.0
100
AcDbLayout
  1
Layout1
 70
     1
 71
     1
 10
0.0
 20
0.0
 11
420.0
 21
297.0
 12
0.0
 22
0.0
 32
0.0
 14
1.0000000000E+20
 24
1.0000000000E+20
 34
1.0000000000E+20
 15
-1.0000000000E+20
 25
-1.0000000000E+20
 35
-1.0000000000E+20
146
0.0
 13
0.0
 23
0.0
 33
0.0
 16
1.0
 26
0.0
 36
0.0
 17
0.0
 27
1.0
 37
0.0
 76
     0
330
1B
  0
LAYOUT
  5
26
102
{ACAD_REACTORS
330
1A
102
}
330
1A
100
AcDbPlotSettings
  1

  2
none_device
  4

  6

 40
0.0
 41
0.0
 42
0.0
 43
0.0
 44
0.0
 45
0.0
 46
0.0
 47
0.0
 48
0.0
 49
0.0
140
0.0
141
0.0
142
1.0
143
1.0
 70
   688
 72
     1
 73
     0
 74
     5
  7

 75
    16
147
1.0
148
0.0
149
0.0
100
AcDbLayout
  1
Layout2
 70
     1
 71
     2
 10
0.0
 20
0.0
 11
0.0
 21
0.0
 12
0.0
 22
0.0
 32
0.0
 14
0.0
 24
0.0
 34
0.0
 15
0.0
 25
0.0
 35
0.0
146
0.0
 13
0.0
 23
0.0
 33
0.0
 16
1.0
 26
0.0
 36
0.0
 17
0.0
 27
1.0
 37
0.0
 76
     0
330
23
  0
LAYOUT
  5
22
102
{ACAD_REACTORS
330
1A
102
}
330
1A
100
AcDbPlotSettings
  1

  2
none_device
  4
Letter_(8.50_x_11.00_Inches)
  6

 40
6.35
 41
6.35
 42
6.35000508
 43
6.35000508
 44
215.9
 45
279.4
 46
0.0
 47
0.0
 48
0.0
 49
0.0
140
0.0
141
0.0
142
1.0
143
1.0
 70
  1712
 72
     1
 73
     0
 74
     0
  7

 75
     0
147
1.0
148
0.0
149
0.0
100
AcDbLayout
  1
Model
 70
     1
 71
     0
 10
0.0
 20
0.0
 11
279.4
 21
215.9
 12
0.0
 22
0.0
 32
0.0
 14
0.0
 24
0.0
 34
0.0
 15
279.4
 25
215.9
 35
0.0
146
0.0
 13
0.0
 23
0.0
 33
0.0
 16
1.0
 26
0.0
 36
0.0
 17
0.0
 27
1.0
 37
0.0
 76
     0
330
1F
331
29
  0
MLINESTYLE
  5
18
102
{ACAD_REACTORS
330
17
102
}
330
17
100
AcDbMlineStyle
  2
Standard
 70
     0
  3

 62
   256
 51
90.0
 52
90.0
 71
     2
 49
0.5
 62
   256
  6
BYLAYER
 49
-0.5
 62
   256
  6
BYLAYER
  0
ACDBPLACEHOLDER
  5
F
102
{ACAD_REACTORS
330
E
102
}
330
E
  0
SCALE
  5
48
102
{ACAD_REACTORS
330
47
102
}
330
47
100
AcDbScale
 70
     0
300
1:1
140
1.0
141
1.0
290
     1
  0
SCALE
  5
49
102
{ACAD_REACTORS
330
47
102
}
330
47
100
AcDbScale
 70
     0
300
1:2
140
1.0
141
2.0
290
     0
  0
SCALE
  5
4A
102
{ACAD_REACTORS
330
47
102
}
330
47
100
AcDbScale
 70
     0
300
1:4
140
1.0
141
4.0
290
     0
  0
SCALE
  5
4B
102
{ACAD_REACTORS
330
47
102
}
330
47
100
AcDbScale
 70
     0
300
1:5
140
1.0
141
5.0
290
     0
  0
SCALE
  5
4C
102
{ACAD_REACTORS
330
47
102
}
330
47
100
AcDbScale
 70
     0
300
1:8
140
1.0
141
8.0
290
     0
  0
SCALE
  5
4D
102
{ACAD_REACTORS
330
47
102
}
330
47
100
AcDbScale
 70
     0
300
1:10
140
1.0
141
10.0
290
     0
  0
SCALE
  5
4E
102
{ACAD_REACTORS
330
47
102
}
330
47
100
AcDbScale
 70
     0
300
1:16
140
1.0
141
16.0
290
     0
  0
SCALE
  5
4F
102
{ACAD_REACTORS
330
47
102
}
330
47
100
AcDbScale
 70
     0
300
1:20
140
1.0
141
20.0
290
     0
  0
SCALE
  5
50
102
{ACAD_REACTORS
330
47
102
}
330
47
100
AcDbScale
 70
     0
300
1:30
140
1.0
141
30.0
290
     0
  0
SCALE
  5
51
102
{ACAD_REACTORS
330
47
102
}
330
47
100
AcDbScale
 70
     0
300
1:40
140
1.0
141
40.0
290
     0
  0
SCALE
  5
52
102
{ACAD_REACTORS
330
47
102
}
330
47
100
AcDbScale
 70
     0
300
1:50
140
1.0
141
50.0
290
     0
  0
SCALE
  5
53
102
{ACAD_REACTORS
330
47
102
}
330
47
100
AcDbScale
 70
     0
300
1:100
140
1.0
141
100.0
290
     0
  0
SCALE
  5
54
102
{ACAD_REACTORS
330
47
102
}
330
47
100
AcDbScale
 70
     0
300
2:1
140
2.0
141
1.0
290
     0
  0
SCALE
  5
55
102
{ACAD_REACTORS
330
47
102
}
330
47
100
AcDbScale
 70
     0
300
4:1
140
4.0
141
1.0
290
     0
  0
SCALE
  5
56
102
{ACAD_REACTORS
330
47
102
}
330
47
100
AcDbScale
 70
     0
300
8:1
140
8.0
141
1.0
290
     0
  0
SCALE
  5
57
102
{ACAD_REACTORS
330
47
102
}
330
47
100
AcDbScale
 70
     0
300
10:1
140
10.0
141
1.0
290
     0
  0
SCALE
  5
58
102
{ACAD_REACTORS
330
47
102
}
330
47
100
AcDbScale
 70
     0
300
100:1
140
100.0
141
1.0
290
     0
  0
SCALE
  5
59
102
{ACAD_REACTORS
330
47
102
}
330
47
100
AcDbScale
 70
     0
300
1/128" = 1'-0"
140
0.0078125
141
12.0
290
     0
  0
SCALE
  5
5A
102
{ACAD_REACTORS
330
47
102
}
330
47
100
AcDbScale
 70
     0
300
1/64" = 1'-0"
140
0.015625
141
12.0
290
     0
  0
SCALE
  5
5B
102
{ACAD_REACTORS
330
47
102
}
330
47
100
AcDbScale
 70
     0
300
1/32" = 1'-0"
140
0.03125
141
12.0
290
     0
  0
SCALE
  5
5C
102
{ACAD_REACTORS
330
47
102
}
330
47
100
AcDbScale
 70
     0
300
1/16" = 1'-0"
140
0.0625
141
12.0
290
     0
  0
SCALE
  5
5D
102
{ACAD_REACTORS
330
47
102
}
330
47
100
AcDbScale
 70
     0
300
3/32" = 1'-0"
140
0.09375
141
12.0
290
     0
  0
SCALE
  5
5E
102
{ACAD_REACTORS
330
47
102
}
330
47
100
AcDbScale
 70
     0
300
1/8" = 1'-0"
140
0.125
141
12.0
290
     0
  0
SCALE
  5
5F
102
{ACAD_REACTORS
330
47
102
}
330
47
100
AcDbScale
 70
     0
300
3/16" = 1'-0"
140
0.1875
141
12.0
290
     0
  0
SCALE
  5
60
102
{ACAD_REACTORS
330
47
102
}
330
47
100
AcDbScale
 70
     0
300
1/4" = 1'-0"
140
0.25
141
12.0
290
     0
  0
SCALE
  5
61
102
{ACAD_REACTORS
330
47
102
}
330
47
100
AcDbScale
 70
     0
300
3/8" = 1'-0"
140
0.375
141
12.0
290
     0
  0
SCALE
  5
62
102
{ACAD_REACTORS
330
47
102
}
330
47
100
AcDbScale
 70
     0
300
1/2" = 1'-0"
140
0.5
141
12.0
290
     0
  0
SCALE
  5
63
102
{ACAD_REACTORS
330
47
102
}
330
47
100
AcDbScale
 70
     0
300
3/4" = 1'-0"
140
0.75
141
12.0
290
     0
  0
SCALE
  5
64
102
{ACAD_REACTORS
330
47
102
}
330
47
100
AcDbScale
 70
     0
300
1" = 1'-0"
140
1.0
141
12.0
290
     0
  0
SCALE
  5
65
102
{ACAD_REACTORS
330
47
102
}
330
47
100
AcDbScale
 70
     0
300
1-1/2" = 1'-0"
140
1.5
141
12.0
290
     0
  0
SCALE
  5
66
102
{ACAD_REACTORS
330
47
102
}
330
47
100
AcDbScale
 70
     0
300
3" = 1'-0"
140
3.0
141
12.0
290
     0
  0
SCALE
  5
67
102
{ACAD_REACTORS
330
47
102
}
330
47
100
AcDbScale
 70
     0
300
6" = 1'-0"
140
6.0
141
12.0
290
     0
  0
SCALE
  5
68
102
{ACAD_REACTORS
330
47
102
}
330
47
100
AcDbScale
 70
     0
300
1'-0" = 1'-0"
140
12.0
141
12.0
290
     0
  0
ENDSEC
  0
EOF
